Blog von DOWNDOWN
 
Eintrag #1, 12.03.2005, 17:25 Uhr

Was'n das?

Alter Schalter!

Was ist denn ein Weblog und seit wann hat es denn das Ding hier bei Klamm.de? Was, seit dem 30.12.2004!

Alter Falter!

Was geht denn ab, man!
In fact I knew it... :whistle:

Naja, immerhin habe ich jetzt mal mein "Weblog" missbraucht, oder etwa nicht?!

Ich könnte euch hier ja mal meine neuste Softproduktion vorstellen, oder?

Solo
                                                          
E||--------------------------|
B||------------16-17-14~-----|
G||--14~---------------------|
D||--------------------------|
A||--------------------------|
E||--------------------------|
                                                    
----------------------------|--16~-------16-16/14/-12~---|
---19h17h16-14~-------------|----------------------------|
----------------------14----|----------------------------|
----------------------------|----------------------------|
----------------------------|----------------------------|
----------------------------|----------------------------|
                                                    
---14h12h11---------------|--17~-------23h24-21~-----|
------------12------------|--------------------------|
--------------------------|--------------------------|
--------------------------|--------------------------|
--------------------------|--------------------------|
--------------------------|--------------------------|
              
--21h19-----------------------------|------------17~-16~-14~---19~---|
--------22h21h19--------------------|--------------------------------|
-----------------21h20h18-16~-------|--16-16-14----------------------|
------------------------------------|--------------------------------|
------------------------------------|--------------------------------|
------------------------------------|--------------------------------|
              
--19h17h19h17h19h17h19h17-14----19~-------|------------------------|
------------------------------------------|------------------------|
------------------------------------------|----------16-16-14------|
------------------------------------------|------------------------|
------------------------------------------|------------------------|
------------------------------------------|------------------------|
      
------------------------------|--17-17-15-15-14~-----------|
------------------------------|----------------------------|
--11h-13h-14--13--11--13b-----|----------------------------|
------------------------------|----------------------------|
------------------------------|----------------------------|
------------------------------|----------------------------|
    
--12h11h12----15--14--12~-----|--------------------------|
------------------------------|------------16-17-14~-----|
------------------------------|--14~---------------------|
------------------------------|--------------------------|
------------------------------|--------------------------|
------------------------------|--------------------------|
  
----------------------------|--16~-------16-16/14/-12~---|
---19h17h16-14~-------------|----------------------------|
----------------------14----|----------------------------|
----------------------------|----------------------------|
----------------------------|----------------------------|
----------------------------|----------------------------|
                    
---14h12h11---------------|-------------------------|------------------|
------------12------------|-------------------------|------------------|
--------------------------|-------------------------|------------------|
--------------------------|---------5-7-------------|--------7~--------|
--------------------------|-------------7-----------|------------------|
--------------------------|--5------------7--5--7---|--5--7------------|
            
-----------------------|-----------------------|-------------------|
--7h5h7h5--------5b----|------7-8-7-5b---------|-------------------|
-----------------------|---------------------6-|-------------------|
-----------------------|-----------------------|--5----------------|
-----------------------|-----------------------|-------------------|
-----------------------|-----------------------|-------------------|
      
---------------------------|--12----12-12----17--17--17---|
--14----14-14----9--9--9---|--12----12-12----17--17--17---|
--14----14-14----9--9--9---|--12----12-12-----------------|
--14----14-14----9--9--9---|------------------------------|
---------------------------|------------------------------|
---------------------------|------------------------------|
                                              
--12----12-12----17--24-----||
--12----12-12----17---------||
--12----12-12---------------||
----------------------------||
----------------------------||
----------------------------||

Kann von euch einer Guitar-Tabs lesen :question:  :bg:
 

Wer war da?

 
Bisher haben 11 Gäste diesen Blog besucht.
Wer war da?

Blog-Suche

 
ID/Nick